Ente Khalbile - Classmates - vocal melody tabs

Jimsweb

Super Moderator
Joined
Sep 21, 2009
Messages
2,320
Reaction score
322
Location
USA
Website
www.myoozic.com
Chords for song ente khalbile

Code:
Song : Ente Khalbile
Movie: Classmates
MD: Alex Paul

Code:
e------------------------------------------------------------------------
B---55--7-8-78-78...----------------------------------------------------------------

e------------------------------------------------------------------------
B---7-5----56-56-56...------------------------------------------------------------
G-------66-----------------------------------------------------------------


e--ente--------------------nalla----------------------------------------------
B--3s55--7-8-7--55--7-8-7--55-78-7-5h7~ ----------------------------------------------------------

  thatta               mull
e----7-7-5-5-----------5------------------------------------------------------
B--7---------8-77-77------88-7-5-5h7p5-------------------------------------------------

                 attar              ente
e--attar-----------77--5-5h7---------------------------------------------------
B--55--7-8-7-5---7----------8-7h8p5-4-5-7-8-7-5-------------------------------------------

sulthan
e------------------------------------------------------------------------
B---5s4~ ---4-5-8-7-5---------------------------------------------------------------
G-------6-----------------------------------------------------------------

Original song http://www.youtube.com/watch?v=Wua1innkNI4
 

About us

  • Our community has been around for many years and we pride ourselves in offering quality music notations and music discussions among different people of all backgrounds. We are working hard every day to make sure that our community is one of the best around here. We believe, sharing knowledge is true caring - whether you are a pro or a beginner, you would benefit from this fraternity. Join us and let’s walk together this exciting musical journey. It's fun unlimited and musically bonding!

Facebook