chords-Vezhambal Kezhum

Jimsweb

Super Moderator
Joined
Sep 21, 2009
Messages
2,320
Reaction score
316
Location
USA
Website
www.myoozic.com
Code:
Movie- Olangal
Singer- Yesudas
Music- Ilayaraja Cool
Lyrics- ONV Kurup
Year- 1982
Director- Balu Mahendra
Listen - http://www.musicindiaonline.com/l/20/s/movie_name.3662/

e |--------5(zham)5(bal)4(ke)------
B |---5(ve)-----------------5(zhum)
G |---------------------------------
D |--------------------------------
A |--------------------------------
E |--------------------------------


e |--------3(nal)3(ku)2(di)------
B |---5(ve)----------------3(ram)-5(nee)
G |---------------------------------
D |--------------------------------
A |--------------------------------
E |--------------------------------


e----------------------------33--2----2---55--4------------------
B-5-3-5-----5-3-5------5---------------------------------------
G-------5---------5----------------------------------------------

Approx melody. Corrections welcome.
 
  • Like
Reactions: majeed

About us

  • Our community has been around for many years and we pride ourselves in offering quality music notations and music discussions among different people of all backgrounds. We are working hard every day to make sure that our community is one of the best around here. We believe, sharing knowledge is true caring - whether you are a pro or a beginner, you would benefit from this fraternity. Join us and let’s walk together this exciting musical journey. It's fun unlimited and musically bonding!

Facebook